Tera Milna Pal Do Pal Ka Tab

Notations used
| b  bend
| r  release bend
| /  slide up 
|   slide down
| h  hammer-on
| p  pull-off
| ~  hold note ands let ring
| v  vibrato
Intro
Santoor tabbed for guitar
Tremolo picking
e|--13-12----------12-13-12-12-12-12-12-12-12-12-12-12-----|
B|--------15-14-15-----------------------------------------|
G|---------------------------------------------------------|
D|---------------------------------------------------------|
A|---------------------------------------------------------|
E|---------------------------------------------------------|
e|--13-12----------12-13-12-12-12-12-12-12-12-12-12-12-----|
B|--------15-14-15-----------------------------------------|
G|---------------------------------------------------------|
D|---------------------------------------------------------|
A|---------------------------------------------------------|
E|---------------------------------------------------------|
Play Dm on acoustic guitar
Chords for intro : Dm  A C  Gm  Bb  A  Dm
Dm
Chaaha hai tujhko chaahat se zyaada
Samjha hai tujhko mohabbat se zyaada
Yeh main jaanta hoon yaa mera dil jaanta hai
If you use power chords with distortion you will get a more Rock feel, like a rock ballad
Chorus 
Dm      A     Bb    Gm    Dm
Ho......ho.....ho.....ho.....
Dm      A     Bb    Gm    Dm
With santoor part above
Ho......ho.....ho.....ho.....
Verse
Dm              Bb    A          Dm
Tera milna pal do pal ka meri dhadkane churaye
Dm              Bb      A         Dm
Darr hai mujhe pyaar tera meri jaan le na jaaye
Dm         A     Bb       Dm
Tu bataa kis tarah jiya jaaye haay haay
Dm               Bb    A          Dm
Tera milna pal do pal ka meri dhadkane churaye
Dm               Bb      A         Dm
Darr hai mujhe pyaar tera meri jaan le na jaaye
Dm         A     Bb       Dm
Tu bataa kis tarah jiya jaaye haay haay
Solo 1 (acoustic guitar)
e|---------------------------------------------------------|
B|---------------------------5-6-8-8/10-10-10--------------|
G|--5/7-7-7-7-7-7-7------7-7------------------10v----------|
D|---------------------------------------------------------|
A|---------------------------------------------------------|
E|---------------------------------------------------------|
e|-------------------------------------12----15----18--17-15-------------15-17--|
B|-----------------14-14-14----------------------------------18-15-17-18---------|
G|--10-10-12-14-15----------14------14----14----14-------------------------------|
D|-------------------------------------------------------------------------------|
A|-------------------------------------------------------------------------------|
E|-------------------------------------------------------------------------------|
Keep interchanging between Dm  Bb Gm for these
Aa meri jaan mera sab kuch tu apna kar le
Bas meri chaahat se rishta karle
Tere liye mein kuch bhi ho sakta hoon
Magar mere liye tu woh hai
Jiske liye mein saans leta hoon
Chorus
Ho......ho.....ho.....ho.....(same chords)
Stanza 1
Dm
Poochho na kya hota mujhe
A
Paas jo tu na ho to
Dm                 A
Ruke meri saanson ki laher
Dm
Soch zara yeh tu bhi
A
Pyaar mein tere mujhe
Dm                  A
Diya hai jo waadon ka zaher
Dm       A          Bb          Dm
Kis tarah zaher yeh piya jaaye haay haay
Verse(Same chords)
Tera milna pal do pal ka meri dhadkane churaye
Darr hai mujhe pyaar tera meri jaan le na jaaye
Solo 2
e|--------------------------------------------------5-------|
B|--5h6--5-------5-6-5v-----5h6-5-------6-5---5-6-8---------|
G|---------7-6-7------------------7-6-7-----7---------------|
D|----------------------------------------------------------|
A|----------------------------------------------------------|
E|----------------------------------------------------------|
Chorus again
Ho......ho.....ho.....ho.....
Stanza 2(same chords as stanza 1)
Chupke chupke dil mein toone aag laga di yeh kya
Main to teri yaadon mein jala ho ho ho
Lakh sambhala phir bhi dil yeh deewana mera
Tere hi ishaaron pe chala
Imtihan aur kya diya jaaye haay haay
Verse 
Tera milna pal do pal ka meri dhadkane churaye
Darr hai mujhe pyaar tera meri jaan le na jaaye
Tu bata kis tarah jiya jaaye haay haay
Chorus for the last time
Ho......ho.....ho.....ho.....
Song ends with the santoor part
e|--13-12----------12-13-12-12-12-12-12-12-12-12-12-12-----|
B|--------15-14-15-----------------------------------------|
G|---------------------------------------------------------|
D|---------------------------------------------------------|
A|---------------------------------------------------------|
E|---------------------------------------------------------|
And that’s all………
All the licks played during the verses, chorus and stanzas:
Played during the chorus
e|---12-13---15b17—15b7—hold bend---------------------------------------------|
B|----------------------------------------------------------------------------|
G|----------------------------------------------------------------------------|
D|----------------------------------------------------------------------------|
A|----------------------------------------------------------------------------|
E|----------------------------------------------------------------------------|
e|----------------------------------------------------------------------------|
B|---13b15r13----------13-----------------------------------------------------|
G|------------14-12-14----14-12-14--------------------------------------------|
D|----------------------------------------------------------------------------|
A|----------------------------------------------------------------------------|
E|----------------------------------------------------------------------------|
e|--15b17-hold the bend and release slowly—13p12------------------------------|
B|-----------------------------------------------15-13------------------------|
G|-----------------------------------------------------14/15v-------14p12-14v-|
D|----------------------------------------------------------------------------|
A|----------------------------------------------------------------------------|
E|----------------------------------------------------------------------------|
Played during verses (at “pal do pal ka”)
e|-----------------------------------12-13p12---------------------------------|
B|--11h13---13b15v-13—11v---------15----------15p13-15p13---------------------|
G|--------------------------------------------------------14p12-12/14v--------|
D|----------------------------------------------------------------------------|
A|----------------------------------------------------------------------------|
E|----------------------------------------------------------------------------|
After “pyaar tera”
e|--13p10---------------------------|
B|--------13p10---------------------|
G|--------------12p10----10/12v-----|
D|--------------------12------------|
A|----------------------------------|
E|----------------------------------|
This same lick has little variation when verse comes after stanza 1, like
e|--13p10-----------------------------------------------|
B|--------13p10-----------------------------------------|
G|--------------12p10----10/12v----12b14r12p10----------|
D|--------------------12-----------------------12-------|
A|------------------------------------------------------|
E|------------------------------------------------------|
At “le naa jaaye”
e|--------------------------------|
B|--------------------------------|
G|------12b14r12p10---------------|
D|------------------12v-----------|
A|--------------------------------|
E|--------------------------------|
Played during the stanzas
e|----------------------------------------------------------------------------|
B|--11p10---------------------------------------------------------------------|
G|--------12p109----9-10v----------------------------------------------------|
D|----------------12----------------------------------------------------------|
A|----------------------------------------------------------------------------|
E|----------------------------------------------------------------------------|
Played in third time verse (after “Meri dhadkanen” )
e|---10h12h13p12p10-----------------------------------------------------------|
B|------------------13p10-----------------------------------------------------|
G|------------------------12b14-hold------------------------------------------|
D|----------------------------------------------------------------------------|
A|----------------------------------------------------------------------------|
E|----------------------------------------------------------------------------|
Played in the chorus before the second stanza
e|---15b17---13p12------------------------------------------------|
B|-----------------15p13------------------------------------------|
G|-----------------------14/15----15-14-12v-----12b14r12b14-------|
D|----------------------------------------------------------------|
A|----------------------------------------------------------------|
E|----------------------------------------------------------------|

Leave a Reply