Pehli Nazar Mein Solo Tab


Tuning: Half-Step Down

e|--------------------6h8~---6-6-------8/10--h11p10p86---------------------|
B|------3-4-6--6/8-6--------------------------------------------------------|
G|-3-5----------------------------------------------------------------------|
D|--------------------------------------------------------------------------|
A|--------------------------------------------------------------------------|
E|--------------------------------------------------------------------------|

e|-----13----13---11--10h11p10----------------------------------------------|
B|--11----11-------------------11/13~---------------------------------------|
G|--------------------------------------------------------------------------|
D|--------------------------------------------------------------------------|
A|--------------------------------------------------------------------------|
E|--------------------------------------------------------------------------|

e|-------18----17-18-18/20---18-18--------20b22-----20br22----18~-18~-18~-18~-18~-18~-18~-18---|
B|-15-16---------------------------------------------------------------------------------------|
G|---------------------------------------------------------------------------------------------|
D|---------------------------------------------------------------------------------------------|
A|---------------------------------------------------------------------------------------------|
E|---------------------------------------------------------------------------------------------|


************************************

| /   slide up
|    slide down
| h   hammer-on
| p   pull-off
| ~   vibrato
| +   harmonic
| x   Mute note
| b   Bend
| pb  Pre-bend
| br  Bend release
| pbr Pre-bend release
| brb Bend release bend

************************************

Leave a Reply