Ninnidale Guitar Chords

  
(D#)         (A#)         (G#)        (D#)
Ninnindale Ninnindale Kanasondu Shuruvaagide
(D#)         (A#)         (G#)        (D#)
Ninnindale Ninnindale Manasindu Kunidaadide
(D#)                            (A#)
Ee Yedeyalli     Sihiyaada    Kolahala
    (G#)                  (D#)
Nan Yeduralle Nee Heege Bandaagale
      (D#)                    (A#)                      
Ninna Tutiyalli    Naguvagu va Hambala
    (G#)             (D#)
Naa Nintalle Haalade Ninnindale.........
(for the rest of the song the same pattern is repeated.)


Ninnindale Ninnindale Kanasondu Shuruvaagide
Ninnindale Ninnindale  Manasindu Kunidaadide

(and the lead part over here is played. on the second and third string like)

e|---------------------------------------------------------------------------|
B|----11-10-11-----8-9-----------11-10-11-----8-9----------------------------|
G|---------------------10-8-----------------------10-8-----------------------|
D|---------------------------------------------------------------------------|
A|---------------------------------------------------------------------------|
E|---------------------------------------------------------------------------|

(Played in an acoustic manner)

e|---------------------------------------------------------------------------|
B|----------8--6-6-------8--11-6-------8--6----------------------------------|
G|-----68-----------68-----------68-------8-7-7-8-------------------------|
D|---------------------------------------------------------------------------|
A|---------------------------------------------------------------------------|
E|---------------------------------------------------------------------------|


(Cm)                        (Gm)
Eerulalli    Jwaradante   Kaadi     Eega
(Cm)                   (Gm)
Haayagi Nin tiruve   Sariyenu
(Cm)                 (Gm)
Bekante  leMaadiye Eno    Moodi
(Cm)                (Gm)
Innelu   Noodav   Pariyenu
(D#)               (A#)
Ee Mayege        Ee Mallige
(G#)                  (D#)
Nan ninda     Kali  Bandide


(D#)         (A#)         (G#)        (D#)
Ninnindale Ninnindale Kanasondu Shuruvaagide


(Cm)                         (Gm)
Hodalli      Bandalli      Yella        Ninna
(Cm)                (Gm)
Sompada Cheluvina Guna Gaana
(Cm)                 (Gm)
Kedige  Gariyantha Ninna  Nota
(Cm)                     (Gm)
Nanageno   Antante     Anumaana


(D#)         (A#)           (G#)            (D#)
Ninnindale Sadi dillade Mordaada Kare Bandide
(D#)         (A#)         (G#)        (D#)
Ninnindale Ninnindale Kanasondu Shuruvaagide


(D#)                            (A#)
Ee Yedeyalli     Sihiyaada    Kolahala
    (G#)                  (D#)
Nan Yeduralle Nee Heege Bandaagale
      (D#)                    (A#)                      
Ninna Tutiyalli    Naguvagu va Hambala
    (G#)             (D#)
Naa Nintalle Haalade Ninnindale..


(D#)         (A#)         (G#)        (D#)
Ninnindale Ninnindale Kanasondu Shuruvaagide
(D#)         (A#)         (G#)        (D#)
Ninnindale Ninnindale Manasindu Kunidaadide

Leave a Reply