Kuch Kuch Hota Hai Solo Tab

e------7-5-7---5---7--77777777-|
b--555-------8-----------------|
g------------------------------|
d------------------------------|
a------------------------------|
E------------------------------|


e--0-2----3--2---3---2--0---00000000-|
b------3-------3---------------------|
g------------------------------------|
d------------------------------------|
a------------------------------------|
E------------------------------------|

Leave a Reply