Kal Ho Naa Ho Tab

[Intro]
E|------------------0-------------------|
B|-1---0-1-0-1-0-1----3-1-0----0----0---|
G|---------------------------2----2-----|
D|--------------------------------------|
A|--------------------------------------|
E|--------------------------------------| (x2)

[Interlude]
                                         Strum C
E|--------------------------|----------------------------|
B|-----1--------------------|------1---------------------|
G|-0-2---2----------0-2-0---|--0-2---2--------3-2-0------|
D|----------------4---------|---------------4------------|
A|--------------------------|----------------------------|
E|--------------------------|----------------------------|

[Verse]
E|------------------------------|---------------------------------|
B|-0---0-1-3--------------------|----0---0-1-3--------------------|
G|------------0-0-0---------0---|----------------0-0-0--------2 --|
D|--------------------3-2-3-----|-----------------------3-2-3-----|
A|------------------------------|---------------------------------|
E|------------------------------|---------------------------------|

E|-----1-0h1-------------------|     |1-3—0h1~ -----------------------|
B|-0-1----------3—3p0-----0-3--|     |--------------0---0-1-----------|
G|-----------------------------|     |----------------2---------0h2p0-|
D|-----------------------------|     |--------------------------------|
A|-----------------------------|     |--------------------------------|
E|-----------------------------|(x2) |--------------------------------|

[Interlude] (x2)
                                         Strum C
E|--------------------------|----------------------------|
B|-----1--------------------|------1---------------------|
G|-0-2---2----------0-2-0---|--0-2---2--------3-2-0------|
D|----------------4---------|---------------4------------|
A|--------------------------|----------------------------|
E|--------------------------|----------------------------|



************************************

| h  Hammer-on
| p  Pull-off
|    
| (x 
| )  
| ~  
| — 

************************************

Leave a Reply